ISO-10303-21;
HEADER;
FILE_DESCRIPTION (( 'STEP AP203' ),
    '1' );
FILE_NAME ('BK7-RNDF-25.4-0.5.STEP',
    '2020-12-22T01:28:04',
    ( '' ),
    ( '' ),
    'SwSTEP 2.0',
    'SolidWorks 2020',
    '' );
FILE_SCHEMA (( 'CONFIG_CONTROL_DESIGN' ));
ENDSEC;

DATA;
#1 = VERTEX_POINT ( 'NONE', #37 ) ;
#2 = EDGE_CURVE ( 'NONE', #93, #150, #14, .T. ) ;
#3 = DIRECTION ( 'NONE',  ( 1.000000000000000000, 0.000000000000000000, 0.000000000000000000 ) ) ;
#4 = CARTESIAN_POINT ( 'NONE',  ( -5.939536975864662969E-16, 12.69999999999999929, 0.000000000000000000 ) ) ;
#5 = EDGE_LOOP ( 'NONE', ( #139, #108 ) ) ;
#6 = PERSON_AND_ORGANIZATION ( #70, #111 ) ;
#7 = APPROVAL_DATE_TIME ( #114, #158 ) ;
#8 = COORDINATED_UNIVERSAL_TIME_OFFSET ( 8, 0, .AHEAD. ) ;
#9 = ORIENTED_EDGE ( 'NONE', *, *, #149, .T. ) ;
#10 = APPROVAL ( #69, 'UNSPECIFIED' ) ;
#11 = CC_DESIGN_PERSON_AND_ORGANIZATION_ASSIGNMENT ( #157, #128, ( #57 ) ) ;
#12 = ORIENTED_EDGE ( 'NONE', *, *, #2, .T. ) ;
#13 = DIRECTION ( 'NONE',  ( -1.000000000000000000, -0.000000000000000000, -0.000000000000000000 ) ) ;
#14 = LINE ( 'NONE', #95, #59 ) ;
#15 = ADVANCED_FACE ( 'NONE', ( #163 ), #96, .F. ) ;
#16 = DIRECTION ( 'NONE',  ( -0.000000000000000000, 0.000000000000000000, 1.000000000000000000 ) ) ;
#17 = DATE_AND_TIME ( #102, #103 ) ;
#18 = PERSON_AND_ORGANIZATION ( #70, #111 ) ;
#19 = APPROVAL_PERSON_ORGANIZATION ( #58, #10, #160 ) ;
#20 = CALENDAR_DATE ( 2020, 22, 12 ) ;
#21 = EDGE_CURVE ( 'NONE', #1, #93, #79, .T. ) ;
#22 = APPROVAL_PERSON_ORGANIZATION ( #6, #31, #174 ) ;
#23 = PRODUCT_DEFINITION_FORMATION_WITH_SPECIFIED_SOURCE ( 'ANY', '', #106, .NOT_KNOWN. ) ;
#24 = ORIENTED_EDGE ( 'NONE', *, *, #171, .F. ) ;
#25 = ORIENTED_EDGE ( 'NONE', *, *, #21, .T. ) ;
#26 = EDGE_CURVE ( 'NONE', #150, #77, #172, .T. ) ;
#27 = DIRECTION ( 'NONE',  ( 0.000000000000000000, 0.000000000000000000, 1.000000000000000000 ) ) ;
#28 = LINE ( 'NONE', #155, #76 ) ;
#29 = DIRECTION ( 'NONE',  ( -1.000000000000000000, -0.000000000000000000, -0.000000000000000000 ) ) ;
#30 = CIRCLE ( 'NONE', #47, 12.69999999999999929 ) ;
#31 = APPROVAL ( #141, 'UNSPECIFIED' ) ;
#32 = CALENDAR_DATE ( 2020, 22, 12 ) ;
#33 = CALENDAR_DATE ( 2020, 22, 12 ) ;
#34 = EDGE_LOOP ( 'NONE', ( #9, #75, #78, #63 ) ) ;
#35 = CC_DESIGN_SECURITY_CLASSIFICATION ( #57, ( #23 ) ) ;
#36 = APPLICATION_PROTOCOL_DEFINITION ( 'international standard', 'config_control_design', 1994, #88 ) ;
#37 = CARTESIAN_POINT ( 'NONE',  ( 1.999999999999998224, 1.555301434917138433E-15, -12.69999999999999929 ) ) ;
#38 = AXIS2_PLACEMENT_3D ( 'NONE', #98, #64, #109 ) ;
#39 = MANIFOLD_SOLID_BREP ( 'Ðý×', #161 ) ;
#40 = CYLINDRICAL_SURFACE ( 'NONE', #38, 12.69999999999999929 ) ;
#41 = FACE_OUTER_BOUND ( 'NONE', #94, .T. ) ;
#42 = DIRECTION ( 'NONE',  ( -1.000000000000000000, -0.000000000000000000, -0.000000000000000000 ) ) ;
#43 = CC_DESIGN_PERSON_AND_ORGANIZATION_ASSIGNMENT ( #18, #90, ( #71 ) ) ;
#44 = SHAPE_DEFINITION_REPRESENTATION ( #61, #136 ) ;
#45 = COORDINATED_UNIVERSAL_TIME_OFFSET ( 8, 0, .AHEAD. ) ;
#46 = PERSON_AND_ORGANIZATION ( #70, #111 ) ;
#47 = AXIS2_PLACEMENT_3D ( 'NONE', #56, #84, #27 ) ;
#48 = ADVANCED_FACE ( 'NONE', ( #41 ), #67, .T. ) ;
#49 = DATE_TIME_ROLE ( 'classification_date' ) ;
#50 = DESIGN_CONTEXT ( 'detailed design', #142, 'design' ) ;
#51 =( GEOMETRIC_REPRESENTATION_CONTEXT ( 3 ) GLOBAL_UNCERTAINTY_ASSIGNED_CONTEXT ( ( #129 ) ) GLOBAL_UNIT_ASSIGNED_CONTEXT ( ( #127, #135, #55 ) ) REPRESENTATION_CONTEXT ( 'NONE', 'WORKASPACE' ) );
#52 = APPROVAL_PERSON_ORGANIZATION ( #145, #158, #105 ) ;
#53 = DIRECTION ( 'NONE',  ( 0.000000000000000000, 0.000000000000000000, 1.000000000000000000 ) ) ;
#54 = CARTESIAN_POINT ( 'NONE',  ( 1.999999999999998224, 0.000000000000000000, 0.000000000000000000 ) ) ;
#55 =( NAMED_UNIT ( * ) SI_UNIT ( $, .STERADIAN. ) SOLID_ANGLE_UNIT ( ) );
#56 = CARTESIAN_POINT ( 'NONE',  ( 1.999999999999998224, 0.000000000000000000, 0.000000000000000000 ) ) ;
#57 = SECURITY_CLASSIFICATION ( '', '', #89 ) ;
#58 = PERSON_AND_ORGANIZATION ( #70, #111 ) ;
#59 = VECTOR ( 'NONE', #123, 1000.000000000000000 ) ;
#60 = APPROVAL_DATE_TIME ( #117, #31 ) ;
#61 = PRODUCT_DEFINITION_SHAPE ( 'NONE', 'NONE',  #71 ) ;
#62 = AXIS2_PLACEMENT_3D ( 'NONE', #110, #151, #152 ) ;
#63 = ORIENTED_EDGE ( 'NONE', *, *, #2, .F. ) ;
#64 = DIRECTION ( 'NONE',  ( -1.000000000000000000, -0.000000000000000000, -0.000000000000000000 ) ) ;
#65 = ORIENTED_EDGE ( 'NONE', *, *, #104, .F. ) ;
#66 = FACE_OUTER_BOUND ( 'NONE', #121, .T. ) ;
#67 = CYLINDRICAL_SURFACE ( 'NONE', #62, 12.69999999999999929 ) ;
#68 = ORIENTED_EDGE ( 'NONE', *, *, #149, .F. ) ;
#69 = APPROVAL_STATUS ( 'not_yet_approved' ) ;
#70 = PERSON ( 'UNSPECIFIED', 'UNSPECIFIED', 'UNSPECIFIED', ('UNSPECIFIED'), ('UNSPECIFIED'), ('UNSPECIFIED') ) ;
#71 = PRODUCT_DEFINITION ( 'UNKNOWN', '', #23, #50 ) ;
#72 = DIRECTION ( 'NONE',  ( 0.000000000000000000, 0.000000000000000000, 1.000000000000000000 ) ) ;
#73 = AXIS2_PLACEMENT_3D ( 'NONE', #81, #138, #80 ) ;
#74 = CC_DESIGN_PERSON_AND_ORGANIZATION_ASSIGNMENT ( #156, #85, ( #106 ) ) ;
#75 = ORIENTED_EDGE ( 'NONE', *, *, #104, .T. ) ;
#76 = VECTOR ( 'NONE', #29, 1000.000000000000000 ) ;
#77 = VERTEX_POINT ( 'NONE', #126 ) ;
#78 = ORIENTED_EDGE ( 'NONE', *, *, #26, .F. ) ;
#79 = CIRCLE ( 'NONE', #164, 12.69999999999999929 ) ;
#80 = DIRECTION ( 'NONE',  ( 0.000000000000000000, 0.000000000000000000, 1.000000000000000000 ) ) ;
#81 = CARTESIAN_POINT ( 'NONE',  ( -1.187907395172932594E-15, 0.000000000000000000, 0.000000000000000000 ) ) ;
#82 = CC_DESIGN_DATE_AND_TIME_ASSIGNMENT ( #17, #130, ( #71 ) ) ;
#83 = CARTESIAN_POINT ( 'NONE',  ( -1.187907395172932594E-15, 0.000000000000000000, 0.000000000000000000 ) ) ;
#84 = DIRECTION ( 'NONE',  ( -1.000000000000000000, -0.000000000000000000, -0.000000000000000000 ) ) ;
#85 = PERSON_AND_ORGANIZATION_ROLE ( 'design_owner' ) ;
#86 = ADVANCED_FACE ( 'NONE', ( #165 ), #40, .T. ) ;
#87 = APPROVAL_STATUS ( 'not_yet_approved' ) ;
#88 = APPLICATION_CONTEXT ( 'configuration controlled 3d designs of mechanical parts and assemblies' ) ;
#89 = SECURITY_CLASSIFICATION_LEVEL ( 'unclassified' ) ;
#90 = PERSON_AND_ORGANIZATION_ROLE ( 'creator' ) ;
#91 = ORIENTED_EDGE ( 'NONE', *, *, #21, .F. ) ;
#92 = AXIS2_PLACEMENT_3D ( 'NONE', #162, #167, #16 ) ;
#93 = VERTEX_POINT ( 'NONE', #153 ) ;
#94 = EDGE_LOOP ( 'NONE', ( #65, #25, #12, #24 ) ) ;
#95 = CARTESIAN_POINT ( 'NONE',  ( 0.000000000000000000, 0.000000000000000000, 12.69999999999999929 ) ) ;
#96 = PLANE ( 'NONE',  #134 ) ;
#97 = LOCAL_TIME ( 9, 28, 4.000000000000000000, #99 ) ;
#98 = CARTESIAN_POINT ( 'NONE',  ( 0.000000000000000000, 0.000000000000000000, 0.000000000000000000 ) ) ;
#99 = COORDINATED_UNIVERSAL_TIME_OFFSET ( 8, 0, .AHEAD. ) ;
#100 = COORDINATED_UNIVERSAL_TIME_OFFSET ( 8, 0, .AHEAD. ) ;
#101 = COORDINATED_UNIVERSAL_TIME_OFFSET ( 8, 0, .AHEAD. ) ;
#102 = CALENDAR_DATE ( 2020, 22, 12 ) ;
#103 = LOCAL_TIME ( 9, 28, 4.000000000000000000, #45 ) ;
#104 = EDGE_CURVE ( 'NONE', #1, #77, #28, .T. ) ;
#105 = APPROVAL_ROLE ( '' ) ;
#106 = PRODUCT ( 'BK7-RNDF-25.4-0.5', 'BK7-RNDF-25.4-0.5', '', ( #168 ) ) ;
#107 = LOCAL_TIME ( 9, 28, 4.000000000000000000, #101 ) ;
#108 = ORIENTED_EDGE ( 'NONE', *, *, #171, .T. ) ;
#109 = DIRECTION ( 'NONE',  ( 0.000000000000000000, 0.000000000000000000, 1.000000000000000000 ) ) ;
#110 = CARTESIAN_POINT ( 'NONE',  ( 0.000000000000000000, 0.000000000000000000, 0.000000000000000000 ) ) ;
#111 = ORGANIZATION ( 'UNSPECIFIED', 'UNSPECIFIED', '' ) ;
#112 = CC_DESIGN_PERSON_AND_ORGANIZATION_ASSIGNMENT ( #132, #131, ( #23 ) ) ;
#113 = CARTESIAN_POINT ( 'NONE',  ( -1.187907395172932594E-15, 0.000000000000000000, 12.69999999999999929 ) ) ;
#114 = DATE_AND_TIME ( #33, #147 ) ;
#115 = CC_DESIGN_APPROVAL ( #31, ( #71 ) ) ;
#116 = PRODUCT_RELATED_PRODUCT_CATEGORY ( 'detail', '', ( #106 ) ) ;
#117 = DATE_AND_TIME ( #143, #97 ) ;
#118 = DATE_AND_TIME ( #20, #173 ) ;
#119 = DIRECTION ( 'NONE',  ( 1.000000000000000000, 0.000000000000000000, 0.000000000000000000 ) ) ;
#120 = AXIS2_PLACEMENT_3D ( 'NONE', #83, #42, #53 ) ;
#121 = EDGE_LOOP ( 'NONE', ( #68, #91 ) ) ;
#122 = AXIS2_PLACEMENT_3D ( 'NONE', #133, #72, #119 ) ;
#123 = DIRECTION ( 'NONE',  ( -1.000000000000000000, -0.000000000000000000, -0.000000000000000000 ) ) ;
#124 = PLANE ( 'NONE',  #92 ) ;
#125 = CC_DESIGN_APPROVAL ( #10, ( #23 ) ) ;
#126 = CARTESIAN_POINT ( 'NONE',  ( -1.187907395172932594E-15, 1.555301434917138433E-15, -12.69999999999999929 ) ) ;
#127 =( LENGTH_UNIT ( ) NAMED_UNIT ( * ) SI_UNIT ( .MILLI., .METRE. ) );
#128 = PERSON_AND_ORGANIZATION_ROLE ( 'classification_officer' ) ;
#129 = UNCERTAINTY_MEASURE_WITH_UNIT (LENGTH_MEASURE( 1.000000000000000082E-05 ), #127, 'distance_accuracy_value', 'NONE');
#130 = DATE_TIME_ROLE ( 'creation_date' ) ;
#131 = PERSON_AND_ORGANIZATION_ROLE ( 'design_supplier' ) ;
#132 = PERSON_AND_ORGANIZATION ( #70, #111 ) ;
#133 = CARTESIAN_POINT ( 'NONE',  ( 0.000000000000000000, 0.000000000000000000, 0.000000000000000000 ) ) ;
#134 = AXIS2_PLACEMENT_3D ( 'NONE', #4, #3, #166 ) ;
#135 =( NAMED_UNIT ( * ) PLANE_ANGLE_UNIT ( ) SI_UNIT ( $, .RADIAN. ) );
#136 = ADVANCED_BREP_SHAPE_REPRESENTATION ( 'BK7-RNDF-25.4-0.5', ( #39, #122 ), #51 ) ;
#137 = CC_DESIGN_DATE_AND_TIME_ASSIGNMENT ( #118, #49, ( #57 ) ) ;
#138 = DIRECTION ( 'NONE',  ( -1.000000000000000000, -0.000000000000000000, -0.000000000000000000 ) ) ;
#139 = ORIENTED_EDGE ( 'NONE', *, *, #26, .T. ) ;
#140 = DIRECTION ( 'NONE',  ( 0.000000000000000000, 0.000000000000000000, 1.000000000000000000 ) ) ;
#141 = APPROVAL_STATUS ( 'not_yet_approved' ) ;
#142 = APPLICATION_CONTEXT ( 'configuration controlled 3d designs of mechanical parts and assemblies' ) ;
#143 = CALENDAR_DATE ( 2020, 22, 12 ) ;
#144 = CC_DESIGN_APPROVAL ( #158, ( #57 ) ) ;
#145 = PERSON_AND_ORGANIZATION ( #70, #111 ) ;
#146 = DATE_AND_TIME ( #32, #107 ) ;
#147 = LOCAL_TIME ( 9, 28, 4.000000000000000000, #100 ) ;
#148 = CC_DESIGN_PERSON_AND_ORGANIZATION_ASSIGNMENT ( #46, #170, ( #23 ) ) ;
#149 = EDGE_CURVE ( 'NONE', #93, #1, #30, .T. ) ;
#150 = VERTEX_POINT ( 'NONE', #113 ) ;
#151 = DIRECTION ( 'NONE',  ( -1.000000000000000000, -0.000000000000000000, -0.000000000000000000 ) ) ;
#152 = DIRECTION ( 'NONE',  ( 0.000000000000000000, 0.000000000000000000, 1.000000000000000000 ) ) ;
#153 = CARTESIAN_POINT ( 'NONE',  ( 1.999999999999998224, 0.000000000000000000, 12.69999999999999929 ) ) ;
#154 = CIRCLE ( 'NONE', #73, 12.69999999999999929 ) ;
#155 = CARTESIAN_POINT ( 'NONE',  ( 0.000000000000000000, 1.555301434917138433E-15, -12.69999999999999929 ) ) ;
#156 = PERSON_AND_ORGANIZATION ( #70, #111 ) ;
#157 = PERSON_AND_ORGANIZATION ( #70, #111 ) ;
#158 = APPROVAL ( #87, 'UNSPECIFIED' ) ;
#159 = APPROVAL_DATE_TIME ( #146, #10 ) ;
#160 = APPROVAL_ROLE ( '' ) ;
#161 = CLOSED_SHELL ( 'NONE', ( #86, #48, #175, #15 ) ) ;
#162 = CARTESIAN_POINT ( 'NONE',  ( 1.999999999999999112, 12.69999999999999929, 0.000000000000000000 ) ) ;
#163 = FACE_OUTER_BOUND ( 'NONE', #5, .T. ) ;
#164 = AXIS2_PLACEMENT_3D ( 'NONE', #54, #13, #140 ) ;
#165 = FACE_OUTER_BOUND ( 'NONE', #34, .T. ) ;
#166 = DIRECTION ( 'NONE',  ( 0.000000000000000000, 0.000000000000000000, -1.000000000000000000 ) ) ;
#167 = DIRECTION ( 'NONE',  ( -1.000000000000000000, 0.000000000000000000, -0.000000000000000000 ) ) ;
#168 = MECHANICAL_CONTEXT ( 'NONE', #88, 'mechanical' ) ;
#169 = APPLICATION_PROTOCOL_DEFINITION ( 'international standard', 'config_control_design', 1994, #142 ) ;
#170 = PERSON_AND_ORGANIZATION_ROLE ( 'creator' ) ;
#171 = EDGE_CURVE ( 'NONE', #77, #150, #154, .T. ) ;
#172 = CIRCLE ( 'NONE', #120, 12.69999999999999929 ) ;
#173 = LOCAL_TIME ( 9, 28, 4.000000000000000000, #8 ) ;
#174 = APPROVAL_ROLE ( '' ) ;
#175 = ADVANCED_FACE ( 'NONE', ( #66 ), #124, .F. ) ;
ENDSEC;
END-ISO-10303-21;
